ISO-10303-21;
HEADER;
FILE_DESCRIPTION( ( 'Unknown' ), '1' );
FILE_NAME( '//SBS2003/HD_Usb/Disegni/08_LIB/Users_3D/PROD_GAMM_3D/PUN/7972278.stp', 'Unknown', ( 'Unknown' ), ( 'Unknown' ), 'PSStep 14.0', 'Unknown', '  ' );
FILE_SCHEMA( ( 'AUTOMOTIVE_DESIGN { 1 0 10303 214 1 1 1 1 }' ) );
ENDSEC;
DATA;
#1 = MECHANICAL_DESIGN_GEOMETRIC_PRESENTATION_REPRESENTATION( ' ', ( #10, #11, #12, #13, #14, #15 ), #6 );
#2 = PRODUCT_DEFINITION_CONTEXT( '', #16, 'design' );
#3 = APPLICATION_PROTOCOL_DEFINITION( 'international standard', 'automotive_design', 2001, #16 );
#4 = PRODUCT_CATEGORY_RELATIONSHIP( 'NONE', 'NONE', #17, #18 );
#5 = SHAPE_DEFINITION_REPRESENTATION( #19, #20 );
#6 =  ( GEOMETRIC_REPRESENTATION_CONTEXT( 3 )GLOBAL_UNCERTAINTY_ASSIGNED_CONTEXT( ( #23 ) )GLOBAL_UNIT_ASSIGNED_CONTEXT( ( #25, #26, #27 ) )REPRESENTATION_CONTEXT( 'NONE', 'WORKSPACE' ) );
#10 = STYLED_ITEM( '', ( #29 ), #30 );
#11 = STYLED_ITEM( '', ( #31 ), #32 );
#12 = STYLED_ITEM( '', ( #33 ), #34 );
#13 = STYLED_ITEM( '', ( #35 ), #36 );
#14 = STYLED_ITEM( '', ( #37 ), #38 );
#15 = STYLED_ITEM( '', ( #39 ), #40 );
#16 = APPLICATION_CONTEXT( 'core data for automotive mechanical design processes' );
#17 = PRODUCT_CATEGORY( 'part', 'NONE' );
#18 = PRODUCT_RELATED_PRODUCT_CATEGORY( 'detail', ' ', ( #41 ) );
#19 = PRODUCT_DEFINITION_SHAPE( 'NONE', 'NONE', #42 );
#20 = ADVANCED_BREP_SHAPE_REPRESENTATION( '1', ( #43, #44 ), #6 );
#23 = UNCERTAINTY_MEASURE_WITH_UNIT( LENGTH_MEASURE( 0.00100000000000000 ), #25, '', '' );
#25 =  ( CONVERSION_BASED_UNIT( 'MILLIMETRE', #47 )LENGTH_UNIT(  )NAMED_UNIT( #50 ) );
#26 =  ( NAMED_UNIT( #52 )PLANE_ANGLE_UNIT(  )SI_UNIT( $, .RADIAN. ) );
#27 =  ( NAMED_UNIT( #52 )SI_UNIT( $, .STERADIAN. )SOLID_ANGLE_UNIT(  ) );
#29 = PRESENTATION_STYLE_ASSIGNMENT( ( #58 ) );
#30 = ADVANCED_FACE( '', ( #59, #60 ), #61, .F. );
#31 = PRESENTATION_STYLE_ASSIGNMENT( ( #62 ) );
#32 = ADVANCED_FACE( '', ( #63, #64 ), #65, .T. );
#33 = PRESENTATION_STYLE_ASSIGNMENT( ( #66 ) );
#34 = ADVANCED_FACE( '', ( #67, #68 ), #69, .F. );
#35 = PRESENTATION_STYLE_ASSIGNMENT( ( #70 ) );
#36 = ADVANCED_FACE( '', ( #71, #72 ), #73, .T. );
#37 = PRESENTATION_STYLE_ASSIGNMENT( ( #74 ) );
#38 = ADVANCED_FACE( '', ( #75 ), #76, .F. );
#39 = PRESENTATION_STYLE_ASSIGNMENT( ( #77 ) );
#40 = ADVANCED_FACE( '', ( #78 ), #79, .T. );
#41 = PRODUCT( '1', '1', 'PART-1-DESC', ( #80 ) );
#42 = PRODUCT_DEFINITION( 'NONE', 'NONE', #81, #2 );
#43 = MANIFOLD_SOLID_BREP( '1', #82 );
#44 = AXIS2_PLACEMENT_3D( '', #83, #84, #85 );
#47 = LENGTH_MEASURE_WITH_UNIT( LENGTH_MEASURE( 1.00000000000000 ), #86 );
#50 = DIMENSIONAL_EXPONENTS( 1.00000000000000, 0.000000000000000, 0.000000000000000, 0.000000000000000, 0.000000000000000, 0.000000000000000, 0.000000000000000 );
#52 = DIMENSIONAL_EXPONENTS( 0.000000000000000, 0.000000000000000, 0.000000000000000, 0.000000000000000, 0.000000000000000, 0.000000000000000, 0.000000000000000 );
#58 = SURFACE_STYLE_USAGE( .BOTH., #87 );
#59 = FACE_OUTER_BOUND( '', #88, .T. );
#60 = FACE_OUTER_BOUND( '', #89, .T. );
#61 = CYLINDRICAL_SURFACE( '', #90, 12.5000000000000 );
#62 = SURFACE_STYLE_USAGE( .BOTH., #91 );
#63 = FACE_OUTER_BOUND( '', #92, .T. );
#64 = FACE_OUTER_BOUND( '', #93, .T. );
#65 = CYLINDRICAL_SURFACE( '', #94, 14.5000000000000 );
#66 = SURFACE_STYLE_USAGE( .BOTH., #95 );
#67 = FACE_OUTER_BOUND( '', #96, .T. );
#68 = FACE_BOUND( '', #97, .T. );
#69 = PLANE( '', #98 );
#70 = SURFACE_STYLE_USAGE( .BOTH., #99 );
#71 = FACE_OUTER_BOUND( '', #100, .T. );
#72 = FACE_OUTER_BOUND( '', #101, .T. );
#73 = TOROIDAL_SURFACE( '', #102, 13.0000000000000, 1.50000000000000 );
#74 = SURFACE_STYLE_USAGE( .BOTH., #103 );
#75 = FACE_OUTER_BOUND( '', #104, .T. );
#76 = SPHERICAL_SURFACE( '', #105, 50.0000000000000 );
#77 = SURFACE_STYLE_USAGE( .BOTH., #106 );
#78 = FACE_OUTER_BOUND( '', #107, .T. );
#79 = SPHERICAL_SURFACE( '', #108, 52.0000000000000 );
#80 = PRODUCT_CONTEXT( '', #16, 'mechanical' );
#81 = PRODUCT_DEFINITION_FORMATION_WITH_SPECIFIED_SOURCE( ' ', 'NONE', #41, .NOT_KNOWN. );
#82 = CLOSED_SHELL( '', ( #38, #36, #32, #34, #30, #40 ) );
#83 = CARTESIAN_POINT( '', ( 0.000000000000000, 0.000000000000000, 0.000000000000000 ) );
#84 = DIRECTION( '', ( 0.000000000000000, 0.000000000000000, 1.00000000000000 ) );
#85 = DIRECTION( '', ( 1.00000000000000, 0.000000000000000, 0.000000000000000 ) );
#86 =  ( LENGTH_UNIT(  )NAMED_UNIT( #50 )SI_UNIT( .MILLI., .METRE. ) );
#87 = SURFACE_SIDE_STYLE( '', ( #110 ) );
#88 = EDGE_LOOP( '', ( #111 ) );
#89 = EDGE_LOOP( '', ( #112 ) );
#90 = AXIS2_PLACEMENT_3D( '', #113, #114, #115 );
#91 = SURFACE_SIDE_STYLE( '', ( #116 ) );
#92 = EDGE_LOOP( '', ( #117 ) );
#93 = EDGE_LOOP( '', ( #118 ) );
#94 = AXIS2_PLACEMENT_3D( '', #119, #120, #121 );
#95 = SURFACE_SIDE_STYLE( '', ( #122 ) );
#96 = EDGE_LOOP( '', ( #123 ) );
#97 = EDGE_LOOP( '', ( #124 ) );
#98 = AXIS2_PLACEMENT_3D( '', #125, #126, #127 );
#99 = SURFACE_SIDE_STYLE( '', ( #128 ) );
#100 = EDGE_LOOP( '', ( #129 ) );
#101 = EDGE_LOOP( '', ( #130 ) );
#102 = AXIS2_PLACEMENT_3D( '', #131, #132, #133 );
#103 = SURFACE_SIDE_STYLE( '', ( #134 ) );
#104 = EDGE_LOOP( '', ( #135 ) );
#105 = AXIS2_PLACEMENT_3D( '', #136, #137, #138 );
#106 = SURFACE_SIDE_STYLE( '', ( #139 ) );
#107 = EDGE_LOOP( '', ( #140 ) );
#108 = AXIS2_PLACEMENT_3D( '', #141, #142, #143 );
#110 = SURFACE_STYLE_FILL_AREA( #144 );
#111 = ORIENTED_EDGE( '', *, *, #145, .F. );
#112 = ORIENTED_EDGE( '', *, *, #146, .T. );
#113 = CARTESIAN_POINT( '', ( 0.000000000000000, 0.000000000000000, 57.1500000000000 ) );
#114 = DIRECTION( '', ( -0.000000000000000, -0.000000000000000, -1.00000000000000 ) );
#115 = DIRECTION( '', ( 1.00000000000000, 0.000000000000000, 0.000000000000000 ) );
#116 = SURFACE_STYLE_FILL_AREA( #147 );
#117 = ORIENTED_EDGE( '', *, *, #148, .T. );
#118 = ORIENTED_EDGE( '', *, *, #149, .T. );
#119 = CARTESIAN_POINT( '', ( 0.000000000000000, 0.000000000000000, 57.1500000000000 ) );
#120 = DIRECTION( '', ( -0.000000000000000, -0.000000000000000, -1.00000000000000 ) );
#121 = DIRECTION( '', ( 1.00000000000000, 0.000000000000000, 0.000000000000000 ) );
#122 = SURFACE_STYLE_FILL_AREA( #150 );
#123 = ORIENTED_EDGE( '', *, *, #149, .F. );
#124 = ORIENTED_EDGE( '', *, *, #145, .T. );
#125 = CARTESIAN_POINT( '', ( 12.5000000000000, 0.000000000000000, -1.30104260698260E-015 ) );
#126 = DIRECTION( '', ( 0.000000000000000, 0.000000000000000, 1.00000000000000 ) );
#127 = DIRECTION( '', ( 1.00000000000000, 0.000000000000000, 0.000000000000000 ) );
#128 = SURFACE_STYLE_FILL_AREA( #151 );
#129 = ORIENTED_EDGE( '', *, *, #148, .F. );
#130 = ORIENTED_EDGE( '', *, *, #152, .F. );
#131 = CARTESIAN_POINT( '', ( 0.000000000000000, 0.000000000000000, 27.7980532398578 ) );
#132 = DIRECTION( '', ( 0.000000000000000, 0.000000000000000, -1.00000000000000 ) );
#133 = DIRECTION( '', ( -1.00000000000000, 0.000000000000000, 0.000000000000000 ) );
#134 = SURFACE_STYLE_FILL_AREA( #153 );
#135 = ORIENTED_EDGE( '', *, *, #146, .F. );
#136 = CARTESIAN_POINT( '', ( 6.36816335556624E-015, 0.000000000000000, -21.0000000000000 ) );
#137 = DIRECTION( '', ( 0.000000000000000, 0.000000000000000, 1.00000000000000 ) );
#138 = DIRECTION( '', ( -1.00000000000000, 0.000000000000000, 0.000000000000000 ) );
#139 = SURFACE_STYLE_FILL_AREA( #154 );
#140 = ORIENTED_EDGE( '', *, *, #152, .T. );
#141 = CARTESIAN_POINT( '', ( 6.36816335556624E-015, 0.000000000000000, -21.0000000000000 ) );
#142 = DIRECTION( '', ( 0.000000000000000, 0.000000000000000, 1.00000000000000 ) );
#143 = DIRECTION( '', ( 1.00000000000000, 0.000000000000000, 0.000000000000000 ) );
#144 = FILL_AREA_STYLE( '', ( #155 ) );
#145 = EDGE_CURVE( '', #156, #156, #157, .T. );
#146 = EDGE_CURVE( '', #158, #158, #159, .T. );
#147 = FILL_AREA_STYLE( '', ( #160 ) );
#148 = EDGE_CURVE( '', #161, #161, #162, .T. );
#149 = EDGE_CURVE( '', #163, #163, #164, .T. );
#150 = FILL_AREA_STYLE( '', ( #165 ) );
#151 = FILL_AREA_STYLE( '', ( #166 ) );
#152 = EDGE_CURVE( '', #167, #167, #168, .F. );
#153 = FILL_AREA_STYLE( '', ( #169 ) );
#154 = FILL_AREA_STYLE( '', ( #170 ) );
#155 = FILL_AREA_STYLE_COLOUR( '', #171 );
#156 = VERTEX_POINT( '', #172 );
#157 = CIRCLE( '', #173, 12.5000000000000 );
#158 = VERTEX_POINT( '', #174 );
#159 = CIRCLE( '', #175, 12.5000000000000 );
#160 = FILL_AREA_STYLE_COLOUR( '', #176 );
#161 = VERTEX_POINT( '', #177 );
#162 = CIRCLE( '', #178, 14.5000000000000 );
#163 = VERTEX_POINT( '', #179 );
#164 = CIRCLE( '', #180, 14.5000000000000 );
#165 = FILL_AREA_STYLE_COLOUR( '', #181 );
#166 = FILL_AREA_STYLE_COLOUR( '', #182 );
#167 = VERTEX_POINT( '', #183 );
#168 = CIRCLE( '', #184, 13.3861386138614 );
#169 = FILL_AREA_STYLE_COLOUR( '', #185 );
#170 = FILL_AREA_STYLE_COLOUR( '', #186 );
#171 = COLOUR_RGB( '', 0.200000002980232, 0.200000002980232, 0.200000002980232 );
#172 = CARTESIAN_POINT( '', ( 12.5000000000000, 0.000000000000000, -6.93889390390723E-015 ) );
#173 = AXIS2_PLACEMENT_3D( '', #187, #188, #189 );
#174 = CARTESIAN_POINT( '', ( 12.5000000000000, 0.000000000000000, 27.4122918275927 ) );
#175 = AXIS2_PLACEMENT_3D( '', #190, #191, #192 );
#176 = COLOUR_RGB( '', 0.200000002980232, 0.200000002980232, 0.200000002980232 );
#177 = CARTESIAN_POINT( '', ( -14.5000000000000, 0.000000000000000, 27.7980532398578 ) );
#178 = AXIS2_PLACEMENT_3D( '', #193, #194, #195 );
#179 = CARTESIAN_POINT( '', ( 14.5000000000000, 0.000000000000000, 0.000000000000000 ) );
#180 = AXIS2_PLACEMENT_3D( '', #196, #197, #198 );
#181 = COLOUR_RGB( '', 0.200000002980232, 0.200000002980232, 0.200000002980232 );
#182 = COLOUR_RGB( '', 0.200000002980232, 0.200000002980232, 0.200000002980232 );
#183 = CARTESIAN_POINT( '', ( -13.3861386138614, 0.000000000000000, 29.2475003657942 ) );
#184 = AXIS2_PLACEMENT_3D( '', #199, #200, #201 );
#185 = COLOUR_RGB( '', 0.200000002980232, 0.200000002980232, 0.200000002980232 );
#186 = COLOUR_RGB( '', 0.200000002980232, 0.200000002980232, 0.200000002980232 );
#187 = CARTESIAN_POINT( '', ( 0.000000000000000, 0.000000000000000, -6.93889390390723E-015 ) );
#188 = DIRECTION( '', ( 0.000000000000000, 0.000000000000000, 1.00000000000000 ) );
#189 = DIRECTION( '', ( 1.00000000000000, 0.000000000000000, 0.000000000000000 ) );
#190 = CARTESIAN_POINT( '', ( 0.000000000000000, 0.000000000000000, 27.4122918275927 ) );
#191 = DIRECTION( '', ( 0.000000000000000, 0.000000000000000, 1.00000000000000 ) );
#192 = DIRECTION( '', ( 1.00000000000000, 0.000000000000000, 0.000000000000000 ) );
#193 = CARTESIAN_POINT( '', ( 0.000000000000000, 0.000000000000000, 27.7980532398578 ) );
#194 = DIRECTION( '', ( 0.000000000000000, 0.000000000000000, -1.00000000000000 ) );
#195 = DIRECTION( '', ( -1.00000000000000, 0.000000000000000, 0.000000000000000 ) );
#196 = CARTESIAN_POINT( '', ( 0.000000000000000, 0.000000000000000, 0.000000000000000 ) );
#197 = DIRECTION( '', ( 0.000000000000000, 0.000000000000000, 1.00000000000000 ) );
#198 = DIRECTION( '', ( 1.00000000000000, 0.000000000000000, 0.000000000000000 ) );
#199 = CARTESIAN_POINT( '', ( 6.36816335556624E-015, 0.000000000000000, 29.2475003657942 ) );
#200 = DIRECTION( '', ( 0.000000000000000, 0.000000000000000, -1.00000000000000 ) );
#201 = DIRECTION( '', ( -1.00000000000000, 0.000000000000000, 0.000000000000000 ) );
ENDSEC;
END-ISO-10303-21;
