ISO-10303-21;
HEADER;
FILE_DESCRIPTION( ( 'Unknown' ), '1' );
FILE_NAME( '//SBS2003/HD_Usb/Disegni/08_LIB/Users_3D/PROD_GAMM_3D/PUN/7972308.stp', 'Unknown', ( 'Unknown' ), ( 'Unknown' ), 'PSStep 14.0', 'Unknown', '  ' );
FILE_SCHEMA( ( 'AUTOMOTIVE_DESIGN { 1 0 10303 214 1 1 1 1 }' ) );
ENDSEC;
DATA;
#1 = MECHANICAL_DESIGN_GEOMETRIC_PRESENTATION_REPRESENTATION( ' ', ( #10, #11, #12, #13, #14, #15 ), #6 );
#2 = PRODUCT_DEFINITION_CONTEXT( '', #16, 'design' );
#3 = APPLICATION_PROTOCOL_DEFINITION( 'international standard', 'automotive_design', 2001, #16 );
#4 = PRODUCT_CATEGORY_RELATIONSHIP( 'NONE', 'NONE', #17, #18 );
#5 = SHAPE_DEFINITION_REPRESENTATION( #19, #20 );
#6 =  ( GEOMETRIC_REPRESENTATION_CONTEXT( 3 )GLOBAL_UNCERTAINTY_ASSIGNED_CONTEXT( ( #23 ) )GLOBAL_UNIT_ASSIGNED_CONTEXT( ( #25, #26, #27 ) )REPRESENTATION_CONTEXT( 'NONE', 'WORKSPACE' ) );
#10 = STYLED_ITEM( '', ( #29 ), #30 );
#11 = STYLED_ITEM( '', ( #31 ), #32 );
#12 = STYLED_ITEM( '', ( #33 ), #34 );
#13 = STYLED_ITEM( '', ( #35 ), #36 );
#14 = STYLED_ITEM( '', ( #37 ), #38 );
#15 = STYLED_ITEM( '', ( #39 ), #40 );
#16 = APPLICATION_CONTEXT( 'core data for automotive mechanical design processes' );
#17 = PRODUCT_CATEGORY( 'part', 'NONE' );
#18 = PRODUCT_RELATED_PRODUCT_CATEGORY( 'detail', ' ', ( #41 ) );
#19 = PRODUCT_DEFINITION_SHAPE( 'NONE', 'NONE', #42 );
#20 = ADVANCED_BREP_SHAPE_REPRESENTATION( '1', ( #43, #44 ), #6 );
#23 = UNCERTAINTY_MEASURE_WITH_UNIT( LENGTH_MEASURE( 0.00100000000000000 ), #25, '', '' );
#25 =  ( CONVERSION_BASED_UNIT( 'MILLIMETRE', #47 )LENGTH_UNIT(  )NAMED_UNIT( #50 ) );
#26 =  ( NAMED_UNIT( #52 )PLANE_ANGLE_UNIT(  )SI_UNIT( $, .RADIAN. ) );
#27 =  ( NAMED_UNIT( #52 )SI_UNIT( $, .STERADIAN. )SOLID_ANGLE_UNIT(  ) );
#29 = PRESENTATION_STYLE_ASSIGNMENT( ( #58 ) );
#30 = ADVANCED_FACE( '', ( #59 ), #60, .F. );
#31 = PRESENTATION_STYLE_ASSIGNMENT( ( #61 ) );
#32 = ADVANCED_FACE( '', ( #62, #63 ), #64, .T. );
#33 = PRESENTATION_STYLE_ASSIGNMENT( ( #65 ) );
#34 = ADVANCED_FACE( '', ( #66, #67 ), #68, .F. );
#35 = PRESENTATION_STYLE_ASSIGNMENT( ( #69 ) );
#36 = ADVANCED_FACE( '', ( #70, #71 ), #72, .T. );
#37 = PRESENTATION_STYLE_ASSIGNMENT( ( #73 ) );
#38 = ADVANCED_FACE( '', ( #74, #75 ), #76, .F. );
#39 = PRESENTATION_STYLE_ASSIGNMENT( ( #77 ) );
#40 = ADVANCED_FACE( '', ( #78 ), #79, .T. );
#41 = PRODUCT( '1', '1', 'PART-1-DESC', ( #80 ) );
#42 = PRODUCT_DEFINITION( 'NONE', 'NONE', #81, #2 );
#43 = MANIFOLD_SOLID_BREP( '1', #82 );
#44 = AXIS2_PLACEMENT_3D( '', #83, #84, #85 );
#47 = LENGTH_MEASURE_WITH_UNIT( LENGTH_MEASURE( 1.00000000000000 ), #86 );
#50 = DIMENSIONAL_EXPONENTS( 1.00000000000000, 0.000000000000000, 0.000000000000000, 0.000000000000000, 0.000000000000000, 0.000000000000000, 0.000000000000000 );
#52 = DIMENSIONAL_EXPONENTS( 0.000000000000000, 0.000000000000000, 0.000000000000000, 0.000000000000000, 0.000000000000000, 0.000000000000000, 0.000000000000000 );
#58 = SURFACE_STYLE_USAGE( .BOTH., #87 );
#59 = FACE_OUTER_BOUND( '', #88, .T. );
#60 = SPHERICAL_SURFACE( '', #89, 108.000000000000 );
#61 = SURFACE_STYLE_USAGE( .BOTH., #90 );
#62 = FACE_OUTER_BOUND( '', #91, .T. );
#63 = FACE_OUTER_BOUND( '', #92, .T. );
#64 = CYLINDRICAL_SURFACE( '', #93, 29.0000000000000 );
#65 = SURFACE_STYLE_USAGE( .BOTH., #94 );
#66 = FACE_OUTER_BOUND( '', #95, .T. );
#67 = FACE_BOUND( '', #96, .T. );
#68 = PLANE( '', #97 );
#69 = SURFACE_STYLE_USAGE( .BOTH., #98 );
#70 = FACE_OUTER_BOUND( '', #99, .T. );
#71 = FACE_OUTER_BOUND( '', #100, .T. );
#72 = TOROIDAL_SURFACE( '', #101, 27.0000000000000, 2.00000000000000 );
#73 = SURFACE_STYLE_USAGE( .BOTH., #102 );
#74 = FACE_OUTER_BOUND( '', #103, .T. );
#75 = FACE_OUTER_BOUND( '', #104, .T. );
#76 = CYLINDRICAL_SURFACE( '', #105, 27.0000000000000 );
#77 = SURFACE_STYLE_USAGE( .BOTH., #106 );
#78 = FACE_OUTER_BOUND( '', #107, .T. );
#79 = SPHERICAL_SURFACE( '', #108, 110.000000000000 );
#80 = PRODUCT_CONTEXT( '', #16, 'mechanical' );
#81 = PRODUCT_DEFINITION_FORMATION_WITH_SPECIFIED_SOURCE( ' ', 'NONE', #41, .NOT_KNOWN. );
#82 = CLOSED_SHELL( '', ( #30, #36, #32, #34, #38, #40 ) );
#83 = CARTESIAN_POINT( '', ( 0.000000000000000, 0.000000000000000, 0.000000000000000 ) );
#84 = DIRECTION( '', ( 0.000000000000000, 0.000000000000000, 1.00000000000000 ) );
#85 = DIRECTION( '', ( 1.00000000000000, 0.000000000000000, 0.000000000000000 ) );
#86 =  ( LENGTH_UNIT(  )NAMED_UNIT( #50 )SI_UNIT( .MILLI., .METRE. ) );
#87 = SURFACE_SIDE_STYLE( '', ( #110 ) );
#88 = EDGE_LOOP( '', ( #111 ) );
#89 = AXIS2_PLACEMENT_3D( '', #112, #113, #114 );
#90 = SURFACE_SIDE_STYLE( '', ( #115 ) );
#91 = EDGE_LOOP( '', ( #116 ) );
#92 = EDGE_LOOP( '', ( #117 ) );
#93 = AXIS2_PLACEMENT_3D( '', #118, #119, #120 );
#94 = SURFACE_SIDE_STYLE( '', ( #121 ) );
#95 = EDGE_LOOP( '', ( #122 ) );
#96 = EDGE_LOOP( '', ( #123 ) );
#97 = AXIS2_PLACEMENT_3D( '', #124, #125, #126 );
#98 = SURFACE_SIDE_STYLE( '', ( #127 ) );
#99 = EDGE_LOOP( '', ( #128 ) );
#100 = EDGE_LOOP( '', ( #129 ) );
#101 = AXIS2_PLACEMENT_3D( '', #130, #131, #132 );
#102 = SURFACE_SIDE_STYLE( '', ( #133 ) );
#103 = EDGE_LOOP( '', ( #134 ) );
#104 = EDGE_LOOP( '', ( #135 ) );
#105 = AXIS2_PLACEMENT_3D( '', #136, #137, #138 );
#106 = SURFACE_SIDE_STYLE( '', ( #139 ) );
#107 = EDGE_LOOP( '', ( #140 ) );
#108 = AXIS2_PLACEMENT_3D( '', #141, #142, #143 );
#110 = SURFACE_STYLE_FILL_AREA( #144 );
#111 = ORIENTED_EDGE( '', *, *, #145, .F. );
#112 = CARTESIAN_POINT( '', ( 1.34711147906209E-014, 0.000000000000000, -71.0000000000000 ) );
#113 = DIRECTION( '', ( 0.000000000000000, 0.000000000000000, 1.00000000000000 ) );
#114 = DIRECTION( '', ( -1.00000000000000, 0.000000000000000, 0.000000000000000 ) );
#115 = SURFACE_STYLE_FILL_AREA( #146 );
#116 = ORIENTED_EDGE( '', *, *, #147, .T. );
#117 = ORIENTED_EDGE( '', *, *, #148, .T. );
#118 = CARTESIAN_POINT( '', ( 0.000000000000000, 0.000000000000000, 57.1500000000000 ) );
#119 = DIRECTION( '', ( -0.000000000000000, -0.000000000000000, -1.00000000000000 ) );
#120 = DIRECTION( '', ( 1.00000000000000, 0.000000000000000, 0.000000000000000 ) );
#121 = SURFACE_STYLE_FILL_AREA( #149 );
#122 = ORIENTED_EDGE( '', *, *, #148, .F. );
#123 = ORIENTED_EDGE( '', *, *, #150, .T. );
#124 = CARTESIAN_POINT( '', ( 27.0000000000000, 0.000000000000000, -4.33680868994202E-016 ) );
#125 = DIRECTION( '', ( 0.000000000000000, 0.000000000000000, 1.00000000000000 ) );
#126 = DIRECTION( '', ( 1.00000000000000, 0.000000000000000, 0.000000000000000 ) );
#127 = SURFACE_STYLE_FILL_AREA( #151 );
#128 = ORIENTED_EDGE( '', *, *, #147, .F. );
#129 = ORIENTED_EDGE( '', *, *, #152, .F. );
#130 = CARTESIAN_POINT( '', ( 0.000000000000000, 0.000000000000000, 33.5705503476003 ) );
#131 = DIRECTION( '', ( 0.000000000000000, 0.000000000000000, -1.00000000000000 ) );
#132 = DIRECTION( '', ( -1.00000000000000, 0.000000000000000, 0.000000000000000 ) );
#133 = SURFACE_STYLE_FILL_AREA( #153 );
#134 = ORIENTED_EDGE( '', *, *, #150, .F. );
#135 = ORIENTED_EDGE( '', *, *, #145, .T. );
#136 = CARTESIAN_POINT( '', ( 0.000000000000000, 0.000000000000000, 57.1500000000000 ) );
#137 = DIRECTION( '', ( -0.000000000000000, -0.000000000000000, -1.00000000000000 ) );
#138 = DIRECTION( '', ( 1.00000000000000, 0.000000000000000, 0.000000000000000 ) );
#139 = SURFACE_STYLE_FILL_AREA( #154 );
#140 = ORIENTED_EDGE( '', *, *, #152, .T. );
#141 = CARTESIAN_POINT( '', ( 1.34711147906209E-014, 0.000000000000000, -71.0000000000000 ) );
#142 = DIRECTION( '', ( 0.000000000000000, 0.000000000000000, 1.00000000000000 ) );
#143 = DIRECTION( '', ( 1.00000000000000, 0.000000000000000, 0.000000000000000 ) );
#144 = FILL_AREA_STYLE( '', ( #155 ) );
#145 = EDGE_CURVE( '', #156, #156, #157, .T. );
#146 = FILL_AREA_STYLE( '', ( #158 ) );
#147 = EDGE_CURVE( '', #159, #159, #160, .T. );
#148 = EDGE_CURVE( '', #161, #161, #162, .T. );
#149 = FILL_AREA_STYLE( '', ( #163 ) );
#150 = EDGE_CURVE( '', #164, #164, #165, .T. );
#151 = FILL_AREA_STYLE( '', ( #166 ) );
#152 = EDGE_CURVE( '', #167, #167, #168, .F. );
#153 = FILL_AREA_STYLE( '', ( #169 ) );
#154 = FILL_AREA_STYLE( '', ( #170 ) );
#155 = FILL_AREA_STYLE_COLOUR( '', #171 );
#156 = VERTEX_POINT( '', #172 );
#157 = CIRCLE( '', #173, 27.0000000000000 );
#158 = FILL_AREA_STYLE_COLOUR( '', #174 );
#159 = VERTEX_POINT( '', #175 );
#160 = CIRCLE( '', #176, 29.0000000000000 );
#161 = VERTEX_POINT( '', #177 );
#162 = CIRCLE( '', #178, 29.0000000000000 );
#163 = FILL_AREA_STYLE_COLOUR( '', #179 );
#164 = VERTEX_POINT( '', #180 );
#165 = CIRCLE( '', #181, 27.0000000000000 );
#166 = FILL_AREA_STYLE_COLOUR( '', #182 );
#167 = VERTEX_POINT( '', #183 );
#168 = CIRCLE( '', #184, 27.5000000000000 );
#169 = FILL_AREA_STYLE_COLOUR( '', #185 );
#170 = FILL_AREA_STYLE_COLOUR( '', #186 );
#171 = COLOUR_RGB( '', 0.200000002980232, 0.200000002980232, 0.200000002980232 );
#172 = CARTESIAN_POINT( '', ( 27.0000000000000, 0.000000000000000, 33.5705503476003 ) );
#173 = AXIS2_PLACEMENT_3D( '', #187, #188, #189 );
#174 = COLOUR_RGB( '', 0.200000002980232, 0.200000002980232, 0.200000002980232 );
#175 = CARTESIAN_POINT( '', ( -29.0000000000000, 0.000000000000000, 33.5705503476003 ) );
#176 = AXIS2_PLACEMENT_3D( '', #190, #191, #192 );
#177 = CARTESIAN_POINT( '', ( 29.0000000000000, 0.000000000000000, 0.000000000000000 ) );
#178 = AXIS2_PLACEMENT_3D( '', #193, #194, #195 );
#179 = COLOUR_RGB( '', 0.200000002980232, 0.200000002980232, 0.200000002980232 );
#180 = CARTESIAN_POINT( '', ( 27.0000000000000, 0.000000000000000, 0.000000000000000 ) );
#181 = AXIS2_PLACEMENT_3D( '', #196, #197, #198 );
#182 = COLOUR_RGB( '', 0.200000002980232, 0.200000002980232, 0.200000002980232 );
#183 = CARTESIAN_POINT( '', ( -27.5000000000000, 0.000000000000000, 35.5070420207040 ) );
#184 = AXIS2_PLACEMENT_3D( '', #199, #200, #201 );
#185 = COLOUR_RGB( '', 0.200000002980232, 0.200000002980232, 0.200000002980232 );
#186 = COLOUR_RGB( '', 0.200000002980232, 0.200000002980232, 0.200000002980232 );
#187 = CARTESIAN_POINT( '', ( 0.000000000000000, 0.000000000000000, 33.5705503476003 ) );
#188 = DIRECTION( '', ( 0.000000000000000, 0.000000000000000, 1.00000000000000 ) );
#189 = DIRECTION( '', ( 1.00000000000000, 0.000000000000000, 0.000000000000000 ) );
#190 = CARTESIAN_POINT( '', ( 0.000000000000000, 0.000000000000000, 33.5705503476003 ) );
#191 = DIRECTION( '', ( 0.000000000000000, 0.000000000000000, -1.00000000000000 ) );
#192 = DIRECTION( '', ( -1.00000000000000, 0.000000000000000, 0.000000000000000 ) );
#193 = CARTESIAN_POINT( '', ( 0.000000000000000, 0.000000000000000, 0.000000000000000 ) );
#194 = DIRECTION( '', ( 0.000000000000000, 0.000000000000000, 1.00000000000000 ) );
#195 = DIRECTION( '', ( 1.00000000000000, 0.000000000000000, 0.000000000000000 ) );
#196 = CARTESIAN_POINT( '', ( 0.000000000000000, 0.000000000000000, 0.000000000000000 ) );
#197 = DIRECTION( '', ( 0.000000000000000, 0.000000000000000, 1.00000000000000 ) );
#198 = DIRECTION( '', ( 1.00000000000000, 0.000000000000000, 0.000000000000000 ) );
#199 = CARTESIAN_POINT( '', ( 1.34711147906209E-014, 0.000000000000000, 35.5070420207040 ) );
#200 = DIRECTION( '', ( 0.000000000000000, 0.000000000000000, -1.00000000000000 ) );
#201 = DIRECTION( '', ( -1.00000000000000, 0.000000000000000, 0.000000000000000 ) );
ENDSEC;
END-ISO-10303-21;
